ISO-10303-21;
HEADER;
FILE_DESCRIPTION (( 'STEP AP203' ),
    '1' );
FILE_NAME ('End Cap SDR11_001 117 0140 0040.step',
    '2019-12-16T11:41:07',
    ( '' ),
    ( '' ),
    'SwSTEP 2.0',
    'SolidWorks 2019',
    '' );
FILE_SCHEMA (( 'CONFIG_CONTROL_DESIGN' ));
ENDSEC;

DATA;
#1 = CIRCLE ( 'NONE', #206, 56.30031373797584848 ) ;
#2 = CARTESIAN_POINT ( 'NONE',  ( 2.449293598294707302E-15, 0.0000000000000000000, 20.00000000000000711 ) ) ;
#3 = CARTESIAN_POINT ( 'NONE',  ( -1.463672932855430986E-14, 55.34088216537863758, 0.0000000000000000000 ) ) ;
#4 = DIRECTION ( 'NONE',  ( -0.0000000000000000000, -1.000000000000000000, -0.0000000000000000000 ) ) ;
#5 = DIRECTION ( 'NONE',  ( 0.0000000000000000000, 0.0000000000000000000, -1.000000000000000000 ) ) ;
#6 = CARTESIAN_POINT ( 'NONE',  ( -9.268945347850872039E-17, -4.654343916443957063, -0.7568668251371966083 ) ) ;
#7 = DIRECTION ( 'NONE',  ( -0.0000000000000000000, -1.000000000000000000, -0.0000000000000000000 ) ) ;
#8 = AXIS2_PLACEMENT_3D ( 'NONE', #150, #243, #11 ) ;
#9 = CARTESIAN_POINT ( 'NONE',  ( 0.0000000000000000000, 51.64088216537864184, 0.0000000000000000000 ) ) ;
#10 = UNCERTAINTY_MEASURE_WITH_UNIT (LENGTH_MEASURE( 1.000000000000000082E-05 ), #281, 'distance_accuracy_value', 'NONE');
#11 = DIRECTION ( 'NONE',  ( 0.0000000000000000000, 0.0000000000000000000, -1.000000000000000000 ) ) ;
#12 = DIRECTION ( 'NONE',  ( 0.0000000000000000000, 0.0000000000000000000, 1.000000000000000000 ) ) ;
#13 = DIRECTION ( 'NONE',  ( -1.000000000000000000, 0.0000000000000000000, 0.0000000000000000000 ) ) ;
#14 = CC_DESIGN_PERSON_AND_ORGANIZATION_ASSIGNMENT ( #128, #230, ( #129 ) ) ;
#15 = CIRCLE ( 'NONE', #213, 19.99999999999998934 ) ;
#16 = CARTESIAN_POINT ( 'NONE',  ( 0.0000000000000000000, -4.654343916443957063, 0.7568668251371966083 ) ) ;
#17 = PERSON_AND_ORGANIZATION_ROLE ( 'creator' ) ;
#18 = EDGE_CURVE ( 'NONE', #79, #200, #252, .T. ) ;
#19 = PERSON_AND_ORGANIZATION_ROLE ( 'creator' ) ;
#20 = COORDINATED_UNIVERSAL_TIME_OFFSET ( 3, 0, .AHEAD. ) ;
#21 = CC_DESIGN_APPROVAL ( #142, ( #129 ) ) ;
#22 = CARTESIAN_POINT ( 'NONE',  ( 0.0000000000000000000, 0.0000000000000000000, -16.30000000000000426 ) ) ;
#23 = DIRECTION ( 'NONE',  ( 0.0000000000000000000, 0.0000000000000000000, -1.000000000000000000 ) ) ;
#24 = DIRECTION ( 'NONE',  ( 0.0000000000000000000, -1.000000000000000000, -0.0000000000000000000 ) ) ;
#25 = VECTOR ( 'NONE', #148, 1000.000000000000000 ) ;
#26 = CARTESIAN_POINT ( 'NONE',  ( 16.30000000000000426, 0.0000000000000000000, 0.0000000000000000000 ) ) ;
#27 = AXIS2_PLACEMENT_3D ( 'NONE', #60, #57, #55 ) ;
#28 = ADVANCED_FACE ( 'NONE', ( #66 ), #112, .F. ) ;
#29 = DIRECTION ( 'NONE',  ( -0.0000000000000000000, -1.000000000000000000, -0.0000000000000000000 ) ) ;
#30 = DIRECTION ( 'NONE',  ( 0.0000000000000000000, 0.0000000000000000000, -1.000000000000000000 ) ) ;
#31 = VECTOR ( 'NONE', #29, 1000.000000000000000 ) ;
#32 = FACE_OUTER_BOUND ( 'NONE', #190, .T. ) ;
#33 = PLANE ( 'NONE',  #94 ) ;
#34 = CARTESIAN_POINT ( 'NONE',  ( 0.0000000000000000000, 0.0000000000000000000, 0.0000000000000000000 ) ) ;
#35 = FACE_BOUND ( 'NONE', #193, .T. ) ;
#36 = CARTESIAN_POINT ( 'NONE',  ( 0.0000000000000000000, 0.0000000000000000000, -19.99999999999999645 ) ) ;
#37 = DIRECTION ( 'NONE',  ( 0.0000000000000000000, 0.0000000000000000000, -1.000000000000000000 ) ) ;
#38 = APPROVAL_PERSON_ORGANIZATION ( #208, #290, #68 ) ;
#39 = CYLINDRICAL_SURFACE ( 'NONE', #8, 16.29999999999999716 ) ;
#40 = DIRECTION ( 'NONE',  ( -0.0000000000000000000, -1.000000000000000000, -0.0000000000000000000 ) ) ;
#41 = PRODUCT_DEFINITION ( 'BÝLÝNMEYEN', '', #129, #76 ) ;
#42 = CARTESIAN_POINT ( 'NONE',  ( 0.0000000000000000000, -4.654343916443957063, 0.0000000000000000000 ) ) ;
#43 = DIRECTION ( 'NONE',  ( 0.0000000000000000000, 0.0000000000000000000, 1.000000000000000000 ) ) ;
#44 = FACE_OUTER_BOUND ( 'NONE', #195, .T. ) ;
#45 = CIRCLE ( 'NONE', #234, 20.00000000000000355 ) ;
#46 = DATE_AND_TIME ( #265, #231 ) ;
#47 = DATE_AND_TIME ( #267, #179 ) ;
#48 = PERSON_AND_ORGANIZATION ( #215, #194 ) ;
#49 = TOROIDAL_SURFACE ( 'NONE', #237, -0.7568668251371966083, 60.00000000000000000 ) ;
#50 = FACE_OUTER_BOUND ( 'NONE', #151, .T. ) ;
#51 = DIRECTION ( 'NONE',  ( 0.0000000000000000000, 0.0000000000000000000, 1.000000000000000000 ) ) ;
#52 = EDGE_CURVE ( 'NONE', #152, #161, #1, .T. ) ;
#53 = DIRECTION ( 'NONE',  ( -1.000000000000000000, 0.0000000000000000000, 0.0000000000000000000 ) ) ;
#54 = CARTESIAN_POINT ( 'NONE',  ( 0.0000000000000000000, 49.00000000000000000, -16.29999999999999005 ) ) ;
#55 = DIRECTION ( 'NONE',  ( 0.0000000000000000000, 0.0000000000000000000, -1.000000000000000000 ) ) ;
#56 = DIRECTION ( 'NONE',  ( -1.224646799147353207E-16, 0.0000000000000000000, -1.000000000000000000 ) ) ;
#57 = DIRECTION ( 'NONE',  ( -0.0000000000000000000, -1.000000000000000000, -0.0000000000000000000 ) ) ;
#58 = CIRCLE ( 'NONE', #246, 56.30031373797584848 ) ;
#59 = LINE ( 'NONE', #173, #305 ) ;
#60 = CARTESIAN_POINT ( 'NONE',  ( 0.0000000000000000000, -4.654343916443957063, 0.0000000000000000000 ) ) ;
#61 = DIRECTION ( 'NONE',  ( -0.0000000000000000000, -1.000000000000000000, -0.0000000000000000000 ) ) ;
#62 = CARTESIAN_POINT ( 'NONE',  ( 0.0000000000000000000, -4.654343916443957063, 0.7568668251371966083 ) ) ;
#63 = CARTESIAN_POINT ( 'NONE',  ( 0.0000000000000000000, -4.654343916443957063, 0.0000000000000000000 ) ) ;
#64 = ADVANCED_FACE ( 'NONE', ( #50 ), #49, .T. ) ;
#65 = LOCAL_TIME ( 14, 41, 7.000000000000000000, #284 ) ;
#66 = FACE_OUTER_BOUND ( 'NONE', #77, .T. ) ;
#67 = DIRECTION ( 'NONE',  ( 0.0000000000000000000, 0.0000000000000000000, -1.000000000000000000 ) ) ;
#68 = APPROVAL_ROLE ( '' ) ;
#69 = DIRECTION ( 'NONE',  ( -0.0000000000000000000, -1.000000000000000000, -0.0000000000000000000 ) ) ;
#70 = AXIS2_PLACEMENT_3D ( 'NONE', #223, #295, #90 ) ;
#71 = APPROVAL_ROLE ( '' ) ;
#72 = CALENDAR_DATE ( 2019, 16, 12 ) ;
#73 = CC_DESIGN_PERSON_AND_ORGANIZATION_ASSIGNMENT ( #248, #19, ( #129 ) ) ;
#74 = AXIS2_PLACEMENT_3D ( 'NONE', #137, #236, #306 ) ;
#75 = CARTESIAN_POINT ( 'NONE',  ( 0.0000000000000000000, 0.0000000000000000000, 0.0000000000000000000 ) ) ;
#76 = DESIGN_CONTEXT ( 'detailed design', #191, 'design' ) ;
#77 = EDGE_LOOP ( 'NONE', ( #144, #146, #149 ) ) ;
#78 = ADVANCED_FACE ( 'NONE', ( #44, #35 ), #33, .T. ) ;
#79 = VERTEX_POINT ( 'NONE', #22 ) ;
#80 = CC_DESIGN_APPROVAL ( #290, ( #41 ) ) ;
#81 = CARTESIAN_POINT ( 'NONE',  ( 0.0000000000000000000, 0.0000000000000000000, 0.0000000000000000000 ) ) ;
#82 = ORIENTED_EDGE ( 'NONE', *, *, #92, .T. ) ;
#83 = CARTESIAN_POINT ( 'NONE',  ( 0.0000000000000000000, 0.0000000000000000000, -20.00000000000000355 ) ) ;
#84 = ORIENTED_EDGE ( 'NONE', *, *, #242, .F. ) ;
#85 = CARTESIAN_POINT ( 'NONE',  ( 0.0000000000000000000, 0.0000000000000000000, 0.0000000000000000000 ) ) ;
#86 = ORIENTED_EDGE ( 'NONE', *, *, #18, .F. ) ;
#87 = CIRCLE ( 'NONE', #266, 60.00000000000000000 ) ;
#88 = CARTESIAN_POINT ( 'NONE',  ( 0.0000000000000000000, 0.0000000000000000000, -16.29999999999999716 ) ) ;
#89 = ORIENTED_EDGE ( 'NONE', *, *, #235, .T. ) ;
#90 = DIRECTION ( 'NONE',  ( 0.0000000000000000000, 0.0000000000000000000, -1.000000000000000000 ) ) ;
#91 = ORIENTED_EDGE ( 'NONE', *, *, #307, .T. ) ;
#92 = EDGE_CURVE ( 'NONE', #120, #198, #270, .T. ) ;
#93 = ORIENTED_EDGE ( 'NONE', *, *, #18, .T. ) ;
#94 = AXIS2_PLACEMENT_3D ( 'NONE', #26, #24, #23 ) ;
#95 = ORIENTED_EDGE ( 'NONE', *, *, #235, .F. ) ;
#96 = APPLICATION_PROTOCOL_DEFINITION ( 'international standard', 'config_control_design', 1994, #191 ) ;
#97 = ORIENTED_EDGE ( 'NONE', *, *, #269, .T. ) ;
#98 = DATE_TIME_ROLE ( 'creation_date' ) ;
#99 = PERSON_AND_ORGANIZATION ( #215, #194 ) ;
#100 = SHAPE_DEFINITION_REPRESENTATION ( #156, #271 ) ;
#101 = CC_DESIGN_PERSON_AND_ORGANIZATION_ASSIGNMENT ( #228, #299, ( #224 ) ) ;
#102 = ORIENTED_EDGE ( 'NONE', *, *, #186, .T. ) ;
#103 = ORIENTED_EDGE ( 'NONE', *, *, #131, .F. ) ;
#104 = ORIENTED_EDGE ( 'NONE', *, *, #166, .F. ) ;
#105 = ORIENTED_EDGE ( 'NONE', *, *, #253, .T. ) ;
#106 = CARTESIAN_POINT ( 'NONE',  ( -9.462200519409277003E-15, 51.64088216537864184, 0.0000000000000000000 ) ) ;
#107 = ORIENTED_EDGE ( 'NONE', *, *, #147, .F. ) ;
#108 = LOCAL_TIME ( 14, 41, 7.000000000000000000, #20 ) ;
#109 = CARTESIAN_POINT ( 'NONE',  ( 0.0000000000000000000, 51.64088216537864184, 0.0000000000000000000 ) ) ;
#110 = ORIENTED_EDGE ( 'NONE', *, *, #226, .F. ) ;
#111 = PRODUCT_RELATED_PRODUCT_CATEGORY ( 'detail', '', ( #224 ) ) ;
#112 = TOROIDAL_SURFACE ( 'NONE', #27, -0.7568668251371966083, 56.30031373797584848 ) ;
#113 = DIRECTION ( 'NONE',  ( 0.0000000000000000000, 0.0000000000000000000, -1.000000000000000000 ) ) ;
#114 = ORIENTED_EDGE ( 'NONE', *, *, #253, .F. ) ;
#115 = DIRECTION ( 'NONE',  ( 1.000000000000000000, 0.0000000000000000000, -1.224646799147353207E-16 ) ) ;
#116 = ORIENTED_EDGE ( 'NONE', *, *, #166, .T. ) ;
#117 = AXIS2_PLACEMENT_3D ( 'NONE', #63, #177, #262 ) ;
#118 = EDGE_CURVE ( 'NONE', #198, #180, #297, .T. ) ;
#119 = FACE_OUTER_BOUND ( 'NONE', #174, .T. ) ;
#120 = VERTEX_POINT ( 'NONE', #3 ) ;
#121 = AXIS2_PLACEMENT_3D ( 'NONE', #75, #69, #67 ) ;
#122 = CARTESIAN_POINT ( 'NONE',  ( 0.0000000000000000000, 0.0000000000000000000, 0.0000000000000000000 ) ) ;
#123 = ORIENTED_EDGE ( 'NONE', *, *, #226, .T. ) ;
#124 = ORIENTED_EDGE ( 'NONE', *, *, #260, .F. ) ;
#125 = CIRCLE ( 'NONE', #169, 16.30000000000000426 ) ;
#126 = ORIENTED_EDGE ( 'NONE', *, *, #269, .F. ) ;
#127 = COORDINATED_UNIVERSAL_TIME_OFFSET ( 3, 0, .AHEAD. ) ;
#128 = PERSON_AND_ORGANIZATION ( #215, #194 ) ;
#129 = PRODUCT_DEFINITION_FORMATION_WITH_SPECIFIED_SOURCE ( 'HERHANGÝ', '', #224, .NOT_KNOWN. ) ;
#130 = CALENDAR_DATE ( 2019, 16, 12 ) ;
#131 = EDGE_CURVE ( 'NONE', #180, #182, #214, .T. ) ;
#132 = ORIENTED_EDGE ( 'NONE', *, *, #307, .F. ) ;
#133 = ORIENTED_EDGE ( 'NONE', *, *, #131, .T. ) ;
#134 = VECTOR ( 'NONE', #204, 1000.000000000000000 ) ;
#135 = ORIENTED_EDGE ( 'NONE', *, *, #118, .T. ) ;
#136 = ORIENTED_EDGE ( 'NONE', *, *, #118, .F. ) ;
#137 = CARTESIAN_POINT ( 'NONE',  ( 0.0000000000000000000, 49.00000000000000000, 0.0000000000000000000 ) ) ;
#138 = ORIENTED_EDGE ( 'NONE', *, *, #242, .T. ) ;
#139 = AXIS2_PLACEMENT_3D ( 'NONE', #16, #13, #12 ) ;
#140 = CARTESIAN_POINT ( 'NONE',  ( 1.996174282610185203E-15, 49.00000000000000000, 16.29999999999999005 ) ) ;
#141 = ORIENTED_EDGE ( 'NONE', *, *, #92, .F. ) ;
#142 = APPROVAL ( #283, 'BELÝRTÝLMEMÝÞ' ) ;
#143 = CYLINDRICAL_SURFACE ( 'NONE', #154, 19.99999999999999645 ) ;
#144 = ORIENTED_EDGE ( 'NONE', *, *, #52, .F. ) ;
#145 = DIRECTION ( 'NONE',  ( -0.0000000000000000000, -1.000000000000000000, -0.0000000000000000000 ) ) ;
#146 = ORIENTED_EDGE ( 'NONE', *, *, #196, .T. ) ;
#147 = EDGE_CURVE ( 'NONE', #161, #176, #227, .T. ) ;
#148 = DIRECTION ( 'NONE',  ( -0.0000000000000000000, -1.000000000000000000, -0.0000000000000000000 ) ) ;
#149 = ORIENTED_EDGE ( 'NONE', *, *, #260, .T. ) ;
#150 = CARTESIAN_POINT ( 'NONE',  ( 0.0000000000000000000, 0.0000000000000000000, 0.0000000000000000000 ) ) ;
#151 = EDGE_LOOP ( 'NONE', ( #84, #82, #162 ) ) ;
#152 = VERTEX_POINT ( 'NONE', #106 ) ;
#153 = DIRECTION ( 'NONE',  ( 1.000000000000000000, 0.0000000000000000000, 0.0000000000000000000 ) ) ;
#154 = AXIS2_PLACEMENT_3D ( 'NONE', #239, #4, #113 ) ;
#155 = APPROVAL_DATE_TIME ( #46, #290 ) ;
#156 = PRODUCT_DEFINITION_SHAPE ( 'NONE', 'NONE',  #41 ) ;
#157 = APPROVAL_DATE_TIME ( #47, #142 ) ;
#158 = ADVANCED_FACE ( 'NONE', ( #218 ), #289, .F. ) ;
#159 = APPROVAL_STATUS ( 'not_yet_approved' ) ;
#160 = CC_DESIGN_SECURITY_CLASSIFICATION ( #217, ( #129 ) ) ;
#161 = VERTEX_POINT ( 'NONE', #54 ) ;
#162 = ORIENTED_EDGE ( 'NONE', *, *, #186, .F. ) ;
#163 = CIRCLE ( 'NONE', #211, 20.00000000000000355 ) ;
#164 = ORIENTED_EDGE ( 'NONE', *, *, #196, .F. ) ;
#165 = EDGE_LOOP ( 'NONE', ( #135, #133, #132, #126 ) ) ;
#166 = EDGE_CURVE ( 'NONE', #200, #79, #125, .T. ) ;
#167 = CARTESIAN_POINT ( 'NONE',  ( 0.0000000000000000000, 0.0000000000000000000, 0.0000000000000000000 ) ) ;
#168 = ORIENTED_EDGE ( 'NONE', *, *, #52, .T. ) ;
#169 = AXIS2_PLACEMENT_3D ( 'NONE', #167, #255, #30 ) ;
#170 = CARTESIAN_POINT ( 'NONE',  ( 0.0000000000000000000, 51.64088216537864184, -19.99999999999998934 ) ) ;
#171 = ORIENTED_EDGE ( 'NONE', *, *, #147, .T. ) ;
#172 = APPLICATION_CONTEXT ( 'configuration controlled 3d designs of mechanical parts and assemblies' ) ;
#173 = CARTESIAN_POINT ( 'NONE',  ( 1.996174282610185597E-15, 0.0000000000000000000, 16.29999999999999716 ) ) ;
#174 = EDGE_LOOP ( 'NONE', ( #141, #138, #136 ) ) ;
#175 = DIRECTION ( 'NONE',  ( 0.0000000000000000000, 0.0000000000000000000, -1.000000000000000000 ) ) ;
#176 = VERTEX_POINT ( 'NONE', #140 ) ;
#177 = DIRECTION ( 'NONE',  ( -0.0000000000000000000, -1.000000000000000000, -0.0000000000000000000 ) ) ;
#178 = EDGE_LOOP ( 'NONE', ( #164, #168, #171 ) ) ;
#179 = LOCAL_TIME ( 14, 41, 7.000000000000000000, #185 ) ;
#180 = VERTEX_POINT ( 'NONE', #238 ) ;
#181 = APPROVAL ( #159, 'BELÝRTÝLMEMÝÞ' ) ;
#182 = VERTEX_POINT ( 'NONE', #2 ) ;
#183 = COORDINATED_UNIVERSAL_TIME_OFFSET ( 3, 0, .AHEAD. ) ;
#184 = AXIS2_PLACEMENT_3D ( 'NONE', #277, #61, #175 ) ;
#185 = COORDINATED_UNIVERSAL_TIME_OFFSET ( 3, 0, .AHEAD. ) ;
#186 = EDGE_CURVE ( 'NONE', #180, #198, #15, .T. ) ;
#187 = DATE_AND_TIME ( #72, #65 ) ;
#188 = AXIS2_PLACEMENT_3D ( 'NONE', #9, #7, #5 ) ;
#189 = CARTESIAN_POINT ( 'NONE',  ( 2.449293598294706119E-15, 0.0000000000000000000, 19.99999999999999645 ) ) ;
#190 = EDGE_LOOP ( 'NONE', ( #103, #102, #97, #95 ) ) ;
#191 = APPLICATION_CONTEXT ( 'configuration controlled 3d designs of mechanical parts and assemblies' ) ;
#192 = VERTEX_POINT ( 'NONE', #83 ) ;
#193 = EDGE_LOOP ( 'NONE', ( #86, #104 ) ) ;
#194 = ORGANIZATION ( 'BELÝRTÝLMEMÝÞ', 'BELÝRTÝLMEMÝÞ', '' ) ;
#195 = EDGE_LOOP ( 'NONE', ( #91, #89 ) ) ;
#196 = EDGE_CURVE ( 'NONE', #152, #176, #58, .T. ) ;
#197 = DIRECTION ( 'NONE',  ( -0.0000000000000000000, -1.000000000000000000, -0.0000000000000000000 ) ) ;
#198 = VERTEX_POINT ( 'NONE', #170 ) ;
#199 = CARTESIAN_POINT ( 'NONE',  ( -9.268945347850872039E-17, -4.654343916443957063, -0.7568668251371966083 ) ) ;
#200 = VERTEX_POINT ( 'NONE', #256 ) ;
#201 = AXIS2_PLACEMENT_3D ( 'NONE', #85, #202, #276 ) ;
#202 = DIRECTION ( 'NONE',  ( -0.0000000000000000000, -1.000000000000000000, -0.0000000000000000000 ) ) ;
#203 = EDGE_LOOP ( 'NONE', ( #124, #123, #116, #114 ) ) ;
#204 = DIRECTION ( 'NONE',  ( -0.0000000000000000000, -1.000000000000000000, -0.0000000000000000000 ) ) ;
#205 = EDGE_LOOP ( 'NONE', ( #110, #107, #105, #93 ) ) ;
#206 = AXIS2_PLACEMENT_3D ( 'NONE', #62, #53, #51 ) ;
#207 = CC_DESIGN_DATE_AND_TIME_ASSIGNMENT ( #300, #98, ( #41 ) ) ;
#208 = PERSON_AND_ORGANIZATION ( #215, #194 ) ;
#209 = PERSON_AND_ORGANIZATION ( #215, #194 ) ;
#210 = ADVANCED_FACE ( 'NONE', ( #32 ), #143, .T. ) ;
#211 = AXIS2_PLACEMENT_3D ( 'NONE', #122, #225, #296 ) ;
#212 = PERSON_AND_ORGANIZATION_ROLE ( 'classification_officer' ) ;
#213 = AXIS2_PLACEMENT_3D ( 'NONE', #109, #219, #291 ) ;
#214 = LINE ( 'NONE', #189, #31 ) ;
#215 = PERSON ( 'BELÝRTÝLMEMÝÞ', 'BELÝRTÝLMEMÝÞ', 'BELÝRTÝLMEMÝÞ', ('BELÝRTÝLMEMÝÞ'), ('BELÝRTÝLMEMÝÞ'), ('BELÝRTÝLMEMÝÞ') ) ;
#216 = ADVANCED_FACE ( 'NONE', ( #220 ), #292, .T. ) ;
#217 = SECURITY_CLASSIFICATION ( '', '', #301 ) ;
#218 = FACE_OUTER_BOUND ( 'NONE', #203, .T. ) ;
#219 = DIRECTION ( 'NONE',  ( -0.0000000000000000000, -1.000000000000000000, -0.0000000000000000000 ) ) ;
#220 = FACE_OUTER_BOUND ( 'NONE', #165, .T. ) ;
#221 = TOROIDAL_SURFACE ( 'NONE', #70, -0.7568668251371966083, 56.30031373797584848 ) ;
#222 = DIRECTION ( 'NONE',  ( -1.224646799147352961E-16, 0.0000000000000000000, -1.000000000000000000 ) ) ;
#223 = CARTESIAN_POINT ( 'NONE',  ( 0.0000000000000000000, -4.654343916443957063, 0.0000000000000000000 ) ) ;
#224 = PRODUCT ( 'End Cap SDR11_001 117 0140 0040', 'End Cap SDR11_001 117 0140 0040', '', ( #245 ) ) ;
#225 = DIRECTION ( 'NONE',  ( -0.0000000000000000000, -1.000000000000000000, -0.0000000000000000000 ) ) ;
#226 = EDGE_CURVE ( 'NONE', #176, #200, #59, .T. ) ;
#227 = CIRCLE ( 'NONE', #74, 16.29999999999999005 ) ;
#228 = PERSON_AND_ORGANIZATION ( #215, #194 ) ;
#229 = CALENDAR_DATE ( 2019, 16, 12 ) ;
#230 = PERSON_AND_ORGANIZATION_ROLE ( 'design_supplier' ) ;
#231 = LOCAL_TIME ( 14, 41, 7.000000000000000000, #183 ) ;
#232 = DATE_AND_TIME ( #130, #108 ) ;
#233 = CC_DESIGN_DATE_AND_TIME_ASSIGNMENT ( #187, #268, ( #217 ) ) ;
#234 = AXIS2_PLACEMENT_3D ( 'NONE', #34, #145, #240 ) ;
#235 = EDGE_CURVE ( 'NONE', #182, #192, #45, .T. ) ;
#236 = DIRECTION ( 'NONE',  ( -0.0000000000000000000, -1.000000000000000000, -0.0000000000000000000 ) ) ;
#237 = AXIS2_PLACEMENT_3D ( 'NONE', #42, #40, #37 ) ;
#238 = CARTESIAN_POINT ( 'NONE',  ( 2.449293598294705724E-15, 51.64088216537864184, 19.99999999999998934 ) ) ;
#239 = CARTESIAN_POINT ( 'NONE',  ( 0.0000000000000000000, 0.0000000000000000000, 0.0000000000000000000 ) ) ;
#240 = DIRECTION ( 'NONE',  ( 0.0000000000000000000, 0.0000000000000000000, -1.000000000000000000 ) ) ;
#241 = FACE_OUTER_BOUND ( 'NONE', #178, .T. ) ;
#242 = EDGE_CURVE ( 'NONE', #120, #180, #87, .T. ) ;
#243 = DIRECTION ( 'NONE',  ( -0.0000000000000000000, -1.000000000000000000, -0.0000000000000000000 ) ) ;
#244 =( NAMED_UNIT ( * ) SI_UNIT ( $, .STERADIAN. ) SOLID_ANGLE_UNIT ( ) );
#245 = MECHANICAL_CONTEXT ( 'NONE', #172, 'mechanical' ) ;
#246 = AXIS2_PLACEMENT_3D ( 'NONE', #199, #275, #56 ) ;
#247 = PERSON_AND_ORGANIZATION ( #215, #194 ) ;
#248 = PERSON_AND_ORGANIZATION ( #215, #194 ) ;
#249 = APPROVAL_ROLE ( '' ) ;
#250 = APPROVAL_PERSON_ORGANIZATION ( #48, #181, #249 ) ;
#251 = CC_DESIGN_PERSON_AND_ORGANIZATION_ASSIGNMENT ( #247, #17, ( #41 ) ) ;
#252 = CIRCLE ( 'NONE', #121, 16.30000000000000426 ) ;
#253 = EDGE_CURVE ( 'NONE', #161, #79, #294, .T. ) ;
#254 = TOROIDAL_SURFACE ( 'NONE', #117, -0.7568668251371966083, 60.00000000000000000 ) ;
#255 = DIRECTION ( 'NONE',  ( -0.0000000000000000000, -1.000000000000000000, -0.0000000000000000000 ) ) ;
#256 = CARTESIAN_POINT ( 'NONE',  ( 1.996174282610186386E-15, 0.0000000000000000000, 16.30000000000000426 ) ) ;
#257 = CLOSED_SHELL ( 'NONE', ( #28, #285, #216, #158, #302, #78, #210, #64, #278 ) ) ;
#258 = DIRECTION ( 'NONE',  ( -0.0000000000000000000, -1.000000000000000000, -0.0000000000000000000 ) ) ;
#259 = LINE ( 'NONE', #36, #25 ) ;
#260 = EDGE_CURVE ( 'NONE', #176, #161, #293, .T. ) ;
#261 = LOCAL_TIME ( 14, 41, 7.000000000000000000, #127 ) ;
#262 = DIRECTION ( 'NONE',  ( 0.0000000000000000000, 0.0000000000000000000, -1.000000000000000000 ) ) ;
#263 =( NAMED_UNIT ( * ) PLANE_ANGLE_UNIT ( ) SI_UNIT ( $, .RADIAN. ) );
#264 = CARTESIAN_POINT ( 'NONE',  ( 0.0000000000000000000, 0.0000000000000000000, 0.0000000000000000000 ) ) ;
#265 = CALENDAR_DATE ( 2019, 16, 12 ) ;
#266 = AXIS2_PLACEMENT_3D ( 'NONE', #6, #115, #222 ) ;
#267 = CALENDAR_DATE ( 2019, 16, 12 ) ;
#268 = DATE_TIME_ROLE ( 'classification_date' ) ;
#269 = EDGE_CURVE ( 'NONE', #198, #192, #259, .T. ) ;
#270 = CIRCLE ( 'NONE', #139, 60.00000000000000000 ) ;
#271 = ADVANCED_BREP_SHAPE_REPRESENTATION ( 'End Cap SDR11_001 117 0140 0040', ( #286, #303 ), #272 ) ;
#272 =( GEOMETRIC_REPRESENTATION_CONTEXT ( 3 ) GLOBAL_UNCERTAINTY_ASSIGNED_CONTEXT ( ( #10 ) ) GLOBAL_UNIT_ASSIGNED_CONTEXT ( ( #281, #263, #244 ) ) REPRESENTATION_CONTEXT ( 'NONE', 'WORKASPACE' ) );
#273 = DIRECTION ( 'NONE',  ( 0.0000000000000000000, 0.0000000000000000000, -1.000000000000000000 ) ) ;
#274 = CC_DESIGN_PERSON_AND_ORGANIZATION_ASSIGNMENT ( #99, #212, ( #217 ) ) ;
#275 = DIRECTION ( 'NONE',  ( 1.000000000000000000, 0.0000000000000000000, -1.224646799147353207E-16 ) ) ;
#276 = DIRECTION ( 'NONE',  ( 0.0000000000000000000, 0.0000000000000000000, -1.000000000000000000 ) ) ;
#277 = CARTESIAN_POINT ( 'NONE',  ( 0.0000000000000000000, 49.00000000000000000, 0.0000000000000000000 ) ) ;
#278 = ADVANCED_FACE ( 'NONE', ( #241 ), #221, .F. ) ;
#279 = FACE_OUTER_BOUND ( 'NONE', #205, .T. ) ;
#280 = CC_DESIGN_APPROVAL ( #181, ( #217 ) ) ;
#281 =( LENGTH_UNIT ( ) NAMED_UNIT ( * ) SI_UNIT ( .MILLI., .METRE. ) );
#282 = APPROVAL_STATUS ( 'not_yet_approved' ) ;
#283 = APPROVAL_STATUS ( 'not_yet_approved' ) ;
#284 = COORDINATED_UNIVERSAL_TIME_OFFSET ( 3, 0, .AHEAD. ) ;
#285 = ADVANCED_FACE ( 'NONE', ( #119 ), #254, .T. ) ;
#286 = MANIFOLD_SOLID_BREP ( 'Döndür1', #257 ) ;
#287 = AXIS2_PLACEMENT_3D ( 'NONE', #81, #197, #273 ) ;
#288 = APPROVAL_PERSON_ORGANIZATION ( #209, #142, #71 ) ;
#289 = CYLINDRICAL_SURFACE ( 'NONE', #287, 16.29999999999999716 ) ;
#290 = APPROVAL ( #282, 'BELÝRTÝLMEMÝÞ' ) ;
#291 = DIRECTION ( 'NONE',  ( 0.0000000000000000000, 0.0000000000000000000, -1.000000000000000000 ) ) ;
#292 = CYLINDRICAL_SURFACE ( 'NONE', #201, 19.99999999999999645 ) ;
#293 = CIRCLE ( 'NONE', #184, 16.29999999999999005 ) ;
#294 = LINE ( 'NONE', #88, #134 ) ;
#295 = DIRECTION ( 'NONE',  ( -0.0000000000000000000, -1.000000000000000000, -0.0000000000000000000 ) ) ;
#296 = DIRECTION ( 'NONE',  ( 0.0000000000000000000, 0.0000000000000000000, -1.000000000000000000 ) ) ;
#297 = CIRCLE ( 'NONE', #188, 19.99999999999998934 ) ;
#298 = APPLICATION_PROTOCOL_DEFINITION ( 'international standard', 'config_control_design', 1994, #172 ) ;
#299 = PERSON_AND_ORGANIZATION_ROLE ( 'design_owner' ) ;
#300 = DATE_AND_TIME ( #229, #261 ) ;
#301 = SECURITY_CLASSIFICATION_LEVEL ( 'unclassified' ) ;
#302 = ADVANCED_FACE ( 'NONE', ( #279 ), #39, .F. ) ;
#303 = AXIS2_PLACEMENT_3D ( 'NONE', #264, #43, #153 ) ;
#304 = APPROVAL_DATE_TIME ( #232, #181 ) ;
#305 = VECTOR ( 'NONE', #258, 1000.000000000000000 ) ;
#306 = DIRECTION ( 'NONE',  ( 0.0000000000000000000, 0.0000000000000000000, -1.000000000000000000 ) ) ;
#307 = EDGE_CURVE ( 'NONE', #192, #182, #163, .T. ) ;
ENDSEC;
END-ISO-10303-21;
